ISO-10303-21;
HEADER;
/* Generated by software containing ST-Developer
 * from STEP Tools, Inc. (www.steptools.com) 
 */
/* OPTION: using custom schema-name function */

FILE_DESCRIPTION(
/* description */ (''),
/* implementation_level */ '2;1');

FILE_NAME(
/* name */ 'AH_200_N.dxf',
/* time_stamp */ '2012-11-23T14:38:23+08:00',
/* author */ (''),
/* organization */ (''),
/* preprocessor_version */ 'ST-DEVELOPER v9',
/* originating_system */ 'UGS - NX 4.0',
/* authorisation */ '');

FILE_SCHEMA (('AUTOMOTIVE_DESIGN { 1 0 10303 214 1 1 1 1 }'));
ENDSEC;

DATA;
#10=SHAPE_REPRESENTATION_RELATIONSHIP('None',
'relationship between Admi4DF8xh3q-None and Admi4DF8xh3q-None',#22,#11);
#11=ADVANCED_BREP_SHAPE_REPRESENTATION('Admi4DF8xh3q-None',(#32),#299);
#12=SHAPE_DEFINITION_REPRESENTATION(#13,#22);
#13=PRODUCT_DEFINITION_SHAPE('','',#14);
#14=PRODUCT_DEFINITION(' ','',#16,#15);
#15=PRODUCT_DEFINITION_CONTEXT('part definition',#21,'design');
#16=PRODUCT_DEFINITION_FORMATION_WITH_SPECIFIED_SOURCE(' ',' ',#18,.NOT_KNOWN.);
#17=PRODUCT_RELATED_PRODUCT_CATEGORY('part','',(#18));
#18=PRODUCT('Admi4DF8xh3q','Admi4DF8xh3q',' ',(#19));
#19=PRODUCT_CONTEXT(' ',#21,'mechanical');
#20=APPLICATION_PROTOCOL_DEFINITION('international standard',
'automotive_design',2001,#21);
#21=APPLICATION_CONTEXT(
'core data for automotive mechanical design processes');
#22=SHAPE_REPRESENTATION('Admi4DF8xh3q-None',(#177),#299);
#23=PRESENTATION_LAYER_ASSIGNMENT('1','Layer 1',(#32));
#24=STYLED_ITEM('',(#25),#32);
#25=PRESENTATION_STYLE_ASSIGNMENT((#26));
#26=SURFACE_STYLE_USAGE(.BOTH.,#27);
#27=SURFACE_SIDE_STYLE('',(#28));
#28=SURFACE_STYLE_FILL_AREA(#29);
#29=FILL_AREA_STYLE('',(#30));
#30=FILL_AREA_STYLE_COLOUR('',#31);
#31=COLOUR_RGB('Light Gray',0.6,0.6,0.6);
#32=MANIFOLD_SOLID_BREP('',#33);
#33=CLOSED_SHELL('',(#43,#44,#45,#46,#47,#48,#49,#50,#51,#52,#53,#54,#55));
#34=CYLINDRICAL_SURFACE('',#184,100.);
#35=CYLINDRICAL_SURFACE('',#195,22.5);
#36=CYLINDRICAL_SURFACE('',#201,4.);
#37=CONICAL_SURFACE('',#182,100.,45.);
#38=CONICAL_SURFACE('',#186,98.5,45.);
#39=CONICAL_SURFACE('',#191,24.,61.5570713756367);
#40=CONICAL_SURFACE('',#197,20.5,45.);
#41=CONICAL_SURFACE('',#202,4.,45.);
#42=CONICAL_SURFACE('',#203,4.,45.);
#43=ADVANCED_FACE('',(#70,#60),#56,.T.);
#44=ADVANCED_FACE('',(#71,#61),#37,.T.);
#45=ADVANCED_FACE('',(#72,#73),#34,.T.);
#46=ADVANCED_FACE('',(#62,#74),#38,.T.);
#47=ADVANCED_FACE('',(#75,#63,#76),#57,.T.);
#48=ADVANCED_FACE('',(#64,#77),#39,.T.);
#49=ADVANCED_FACE('',(#65,#78),#58,.T.);
#50=ADVANCED_FACE('',(#79,#80),#35,.T.);
#51=ADVANCED_FACE('',(#66,#81),#40,.T.);
#52=ADVANCED_FACE('',(#67),#59,.T.);
#53=ADVANCED_FACE('',(#82,#83),#36,.F.);
#54=ADVANCED_FACE('',(#68,#84),#41,.F.);
#55=ADVANCED_FACE('',(#69,#85),#42,.F.);
#56=PLANE('',#180);
#57=PLANE('',#189);
#58=PLANE('',#193);
#59=PLANE('',#198);
#60=FACE_OUTER_BOUND('',#87,.T.);
#61=FACE_OUTER_BOUND('',#89,.T.);
#62=FACE_OUTER_BOUND('',#92,.T.);
#63=FACE_OUTER_BOUND('',#95,.T.);
#64=FACE_OUTER_BOUND('',#97,.T.);
#65=FACE_OUTER_BOUND('',#99,.T.);
#66=FACE_OUTER_BOUND('',#103,.T.);
#67=FACE_OUTER_BOUND('',#105,.T.);
#68=FACE_OUTER_BOUND('',#108,.T.);
#69=FACE_OUTER_BOUND('',#110,.T.);
#70=FACE_BOUND('',#86,.T.);
#71=FACE_BOUND('',#88,.T.);
#72=FACE_BOUND('',#90,.T.);
#73=FACE_BOUND('',#91,.T.);
#74=FACE_BOUND('',#93,.T.);
#75=FACE_BOUND('',#94,.T.);
#76=FACE_BOUND('',#96,.T.);
#77=FACE_BOUND('',#98,.T.);
#78=FACE_BOUND('',#100,.T.);
#79=FACE_BOUND('',#101,.T.);
#80=FACE_BOUND('',#102,.T.);
#81=FACE_BOUND('',#104,.T.);
#82=FACE_BOUND('',#106,.T.);
#83=FACE_BOUND('',#107,.T.);
#84=FACE_BOUND('',#109,.T.);
#85=FACE_BOUND('',#111,.T.);
#86=EDGE_LOOP('',(#112));
#87=EDGE_LOOP('',(#113));
#88=EDGE_LOOP('',(#114));
#89=EDGE_LOOP('',(#115));
#90=EDGE_LOOP('',(#116));
#91=EDGE_LOOP('',(#117));
#92=EDGE_LOOP('',(#118));
#93=EDGE_LOOP('',(#119));
#94=EDGE_LOOP('',(#120));
#95=EDGE_LOOP('',(#121));
#96=EDGE_LOOP('',(#122));
#97=EDGE_LOOP('',(#123));
#98=EDGE_LOOP('',(#124));
#99=EDGE_LOOP('',(#125));
#100=EDGE_LOOP('',(#126));
#101=EDGE_LOOP('',(#127));
#102=EDGE_LOOP('',(#128));
#103=EDGE_LOOP('',(#129));
#104=EDGE_LOOP('',(#130));
#105=EDGE_LOOP('',(#131));
#106=EDGE_LOOP('',(#132));
#107=EDGE_LOOP('',(#133));
#108=EDGE_LOOP('',(#134));
#109=EDGE_LOOP('',(#135));
#110=EDGE_LOOP('',(#136));
#111=EDGE_LOOP('',(#137));
#112=ORIENTED_EDGE('',*,*,#151,.T.);
#113=ORIENTED_EDGE('',*,*,#152,.F.);
#114=ORIENTED_EDGE('',*,*,#152,.T.);
#115=ORIENTED_EDGE('',*,*,#153,.F.);
#116=ORIENTED_EDGE('',*,*,#153,.T.);
#117=ORIENTED_EDGE('',*,*,#154,.F.);
#118=ORIENTED_EDGE('',*,*,#154,.T.);
#119=ORIENTED_EDGE('',*,*,#155,.F.);
#120=ORIENTED_EDGE('',*,*,#156,.T.);
#121=ORIENTED_EDGE('',*,*,#155,.T.);
#122=ORIENTED_EDGE('',*,*,#157,.F.);
#123=ORIENTED_EDGE('',*,*,#157,.T.);
#124=ORIENTED_EDGE('',*,*,#158,.F.);
#125=ORIENTED_EDGE('',*,*,#158,.T.);
#126=ORIENTED_EDGE('',*,*,#159,.F.);
#127=ORIENTED_EDGE('',*,*,#159,.T.);
#128=ORIENTED_EDGE('',*,*,#160,.F.);
#129=ORIENTED_EDGE('',*,*,#160,.T.);
#130=ORIENTED_EDGE('',*,*,#161,.F.);
#131=ORIENTED_EDGE('',*,*,#161,.T.);
#132=ORIENTED_EDGE('',*,*,#162,.T.);
#133=ORIENTED_EDGE('',*,*,#163,.T.);
#134=ORIENTED_EDGE('',*,*,#151,.F.);
#135=ORIENTED_EDGE('',*,*,#162,.F.);
#136=ORIENTED_EDGE('',*,*,#156,.F.);
#137=ORIENTED_EDGE('',*,*,#163,.F.);
#138=VERTEX_POINT('',#260);
#139=VERTEX_POINT('',#262);
#140=VERTEX_POINT('',#265);
#141=VERTEX_POINT('',#268);
#142=VERTEX_POINT('',#271);
#143=VERTEX_POINT('',#274);
#144=VERTEX_POINT('',#276);
#145=VERTEX_POINT('',#279);
#146=VERTEX_POINT('',#282);
#147=VERTEX_POINT('',#285);
#148=VERTEX_POINT('',#288);
#149=VERTEX_POINT('',#292);
#150=VERTEX_POINT('',#294);
#151=EDGE_CURVE('',#138,#138,#164,.T.);
#152=EDGE_CURVE('',#139,#139,#165,.T.);
#153=EDGE_CURVE('',#140,#140,#166,.T.);
#154=EDGE_CURVE('',#141,#141,#167,.T.);
#155=EDGE_CURVE('',#142,#142,#168,.T.);
#156=EDGE_CURVE('',#143,#143,#169,.T.);
#157=EDGE_CURVE('',#144,#144,#170,.T.);
#158=EDGE_CURVE('',#145,#145,#171,.T.);
#159=EDGE_CURVE('',#146,#146,#172,.T.);
#160=EDGE_CURVE('',#147,#147,#173,.T.);
#161=EDGE_CURVE('',#148,#148,#174,.T.);
#162=EDGE_CURVE('',#149,#149,#175,.T.);
#163=EDGE_CURVE('',#150,#150,#176,.T.);
#164=CIRCLE('',#178,5.);
#165=CIRCLE('',#179,98.5);
#166=CIRCLE('',#181,100.);
#167=CIRCLE('',#183,100.);
#168=CIRCLE('',#185,98.5);
#169=CIRCLE('',#187,5.);
#170=CIRCLE('',#188,48.);
#171=CIRCLE('',#190,24.);
#172=CIRCLE('',#192,22.5);
#173=CIRCLE('',#194,22.5);
#174=CIRCLE('',#196,20.5);
#175=CIRCLE('',#199,4.);
#176=CIRCLE('',#200,4.);
#177=AXIS2_PLACEMENT_3D('',#258,#204,#205);
#178=AXIS2_PLACEMENT_3D('',#259,#206,#207);
#179=AXIS2_PLACEMENT_3D('',#261,#208,#209);
#180=AXIS2_PLACEMENT_3D('',#263,#210,#211);
#181=AXIS2_PLACEMENT_3D('',#264,#212,#213);
#182=AXIS2_PLACEMENT_3D('',#266,#214,#215);
#183=AXIS2_PLACEMENT_3D('',#267,#216,#217);
#184=AXIS2_PLACEMENT_3D('',#269,#218,#219);
#185=AXIS2_PLACEMENT_3D('',#270,#220,#221);
#186=AXIS2_PLACEMENT_3D('',#272,#222,#223);
#187=AXIS2_PLACEMENT_3D('',#273,#224,#225);
#188=AXIS2_PLACEMENT_3D('',#275,#226,#227);
#189=AXIS2_PLACEMENT_3D('',#277,#228,#229);
#190=AXIS2_PLACEMENT_3D('',#278,#230,#231);
#191=AXIS2_PLACEMENT_3D('',#280,#232,#233);
#192=AXIS2_PLACEMENT_3D('',#281,#234,#235);
#193=AXIS2_PLACEMENT_3D('',#283,#236,#237);
#194=AXIS2_PLACEMENT_3D('',#284,#238,#239);
#195=AXIS2_PLACEMENT_3D('',#286,#240,#241);
#196=AXIS2_PLACEMENT_3D('',#287,#242,#243);
#197=AXIS2_PLACEMENT_3D('',#289,#244,#245);
#198=AXIS2_PLACEMENT_3D('',#290,#246,#247);
#199=AXIS2_PLACEMENT_3D('',#291,#248,#249);
#200=AXIS2_PLACEMENT_3D('',#293,#250,#251);
#201=AXIS2_PLACEMENT_3D('',#295,#252,#253);
#202=AXIS2_PLACEMENT_3D('',#296,#254,#255);
#203=AXIS2_PLACEMENT_3D('',#297,#256,#257);
#204=DIRECTION('',(0.,0.,1.));
#205=DIRECTION('',(1.,0.,0.));
#206=DIRECTION('',(1.,0.,0.));
#207=DIRECTION('',(0.,0.,1.));
#208=DIRECTION('',(1.,0.,0.));
#209=DIRECTION('',(0.,0.,-1.));
#210=DIRECTION('',(-1.,0.,0.));
#211=DIRECTION('',(0.,0.,1.));
#212=DIRECTION('',(1.,0.,0.));
#213=DIRECTION('',(0.,0.,-1.));
#214=DIRECTION('',(1.,0.,0.));
#215=DIRECTION('',(-5.04646829375071E-017,0.,-1.));
#216=DIRECTION('',(1.,0.,0.));
#217=DIRECTION('',(0.,0.,-1.));
#218=DIRECTION('',(1.,0.,0.));
#219=DIRECTION('',(0.,0.,-1.));
#220=DIRECTION('',(1.,0.,0.));
#221=DIRECTION('',(0.,0.,-1.));
#222=DIRECTION('',(-1.,0.,0.));
#223=DIRECTION('',(0.,0.,1.));
#224=DIRECTION('',(-1.,0.,0.));
#225=DIRECTION('',(0.,0.,-1.));
#226=DIRECTION('',(1.,0.,0.));
#227=DIRECTION('',(0.,0.,-1.));
#228=DIRECTION('',(1.,0.,0.));
#229=DIRECTION('',(0.,0.,-1.));
#230=DIRECTION('',(1.,0.,0.));
#231=DIRECTION('',(0.,0.,-1.));
#232=DIRECTION('',(-1.,0.,0.));
#233=DIRECTION('',(0.,0.,1.));
#234=DIRECTION('',(1.,0.,0.));
#235=DIRECTION('',(0.,0.,-1.));
#236=DIRECTION('',(1.,0.,0.));
#237=DIRECTION('',(0.,0.,-1.));
#238=DIRECTION('',(1.,0.,0.));
#239=DIRECTION('',(0.,0.,-1.));
#240=DIRECTION('',(1.,0.,0.));
#241=DIRECTION('',(0.,0.,-1.));
#242=DIRECTION('',(1.,0.,0.));
#243=DIRECTION('',(0.,0.,-1.));
#244=DIRECTION('',(-1.,0.,0.));
#245=DIRECTION('',(0.,0.,1.));
#246=DIRECTION('',(1.,0.,0.));
#247=DIRECTION('',(0.,0.,-1.));
#248=DIRECTION('',(-1.,0.,0.));
#249=DIRECTION('',(0.,0.,1.));
#250=DIRECTION('',(1.,0.,0.));
#251=DIRECTION('',(0.,0.,-1.));
#252=DIRECTION('',(-1.,0.,0.));
#253=DIRECTION('',(0.,0.,1.));
#254=DIRECTION('',(-1.,0.,0.));
#255=DIRECTION('',(0.,0.,1.));
#256=DIRECTION('',(1.,0.,0.));
#257=DIRECTION('',(0.,0.,-1.));
#258=CARTESIAN_POINT('',(0.,0.,0.));
#259=CARTESIAN_POINT('',(337.334825,248.,0.));
#260=CARTESIAN_POINT('',(337.334825,248.,5.));
#261=CARTESIAN_POINT('',(337.334825,160.,0.));
#262=CARTESIAN_POINT('',(337.334825,160.,-98.5));
#263=CARTESIAN_POINT('',(337.334825,248.,0.));
#264=CARTESIAN_POINT('',(338.834825,160.,0.));
#265=CARTESIAN_POINT('',(338.834825,160.,-100.));
#266=CARTESIAN_POINT('',(338.834825,160.,0.));
#267=CARTESIAN_POINT('',(355.834825,160.,0.));
#268=CARTESIAN_POINT('',(355.834825,160.,-100.));
#269=CARTESIAN_POINT('',(405.834825,160.,0.));
#270=CARTESIAN_POINT('',(357.334825,160.,0.));
#271=CARTESIAN_POINT('',(357.334825,160.,-98.5));
#272=CARTESIAN_POINT('',(357.334825,160.,0.));
#273=CARTESIAN_POINT('',(357.334825,248.,0.));
#274=CARTESIAN_POINT('',(357.334825,248.,-5.));
#275=CARTESIAN_POINT('',(357.334825,160.,0.));
#276=CARTESIAN_POINT('',(357.334825,160.,-48.));
#277=CARTESIAN_POINT('',(357.334825,248.,0.));
#278=CARTESIAN_POINT('',(370.334825,160.,0.));
#279=CARTESIAN_POINT('',(370.334825,160.,-24.));
#280=CARTESIAN_POINT('',(370.334825,160.,0.));
#281=CARTESIAN_POINT('',(370.334825,160.,0.));
#282=CARTESIAN_POINT('',(370.334825,160.,-22.5));
#283=CARTESIAN_POINT('',(370.334825,182.5,0.));
#284=CARTESIAN_POINT('',(391.334825,160.,0.));
#285=CARTESIAN_POINT('',(391.334825,160.,-22.5));
#286=CARTESIAN_POINT('',(405.834825,160.,0.));
#287=CARTESIAN_POINT('',(393.334825,160.,0.));
#288=CARTESIAN_POINT('',(393.334825,160.,-20.5));
#289=CARTESIAN_POINT('',(393.334825,160.,0.));
#290=CARTESIAN_POINT('',(393.334825,160.,0.));
#291=CARTESIAN_POINT('',(338.334825,248.,0.));
#292=CARTESIAN_POINT('',(338.334825,248.,4.));
#293=CARTESIAN_POINT('',(356.334825,248.,0.));
#294=CARTESIAN_POINT('',(356.334825,248.,-4.));
#295=CARTESIAN_POINT('',(367.334825,248.,0.));
#296=CARTESIAN_POINT('',(338.334825,248.,0.));
#297=CARTESIAN_POINT('',(356.334825,248.,0.));
#298=MECHANICAL_DESIGN_GEOMETRIC_PRESENTATION_REPRESENTATION('',(#24),#299);
#299=(
GEOMETRIC_REPRESENTATION_CONTEXT(3)
GLOBAL_UNCERTAINTY_ASSIGNED_CONTEXT((#300))
GLOBAL_UNIT_ASSIGNED_CONTEXT((#306,#302,#301))
REPRESENTATION_CONTEXT('AH_200_N','TOP_LEVEL_ASSEMBLY_PART')
);
#300=UNCERTAINTY_MEASURE_WITH_UNIT(LENGTH_MEASURE(2.E-005),#306,
'DISTANCE_ACCURACY_VALUE','Maximum Tolerance applied to model');
#301=(
NAMED_UNIT(*)
SI_UNIT($,.STERADIAN.)
SOLID_ANGLE_UNIT()
);
#302=(
CONVERSION_BASED_UNIT('DEGREE',#304)
NAMED_UNIT(#303)
PLANE_ANGLE_UNIT()
);
#303=DIMENSIONAL_EXPONENTS(0.,0.,0.,0.,0.,0.,0.);
#304=PLANE_ANGLE_MEASURE_WITH_UNIT(PLANE_ANGLE_MEASURE(0.0174532925),#305);
#305=(
NAMED_UNIT(*)
PLANE_ANGLE_UNIT()
SI_UNIT($,.RADIAN.)
);
#306=(
LENGTH_UNIT()
NAMED_UNIT(*)
SI_UNIT(.MILLI.,.METRE.)
);
ENDSEC;
END-ISO-10303-21;
